  0
SECTION
  2
HEADER
  9
$ACADVER
  1
AC1014
  9
$HANDSEED
  5
FFFF
  9
$MEASUREMENT
 70
     1
  0
ENDSEC
  0
SECTION
  2
TABLES
  0
TABLE
  2
VPORT
  5
8
330
0
100
AcDbSymbolTable
 70
     4
  0
VPORT
  5
2E
330
8
100
AcDbSymbolTableRecord
100
AcDbViewportTableRecord
  2
*ACTIVE
 70
     0
 10
0.0
 20
0.0
 11
1.0
 21
1.0
 12
210.0
 22
148.5
 13
0.0
 23
0.0
 14
10.0
 24
10.0
 15
10.0
 25
10.0
 16
0.0
 26
0.0
 36
1.0
 17
0.0
 27
0.0
 37
0.0
 40
341.0
 41
1.24
 42
50.0
 43
0.0
 44
0.0
 50
0.0
 51
0.0
 71
     0
 72
   100
 73
     1
 74
     3
 75
     0
 76
     0
 77
     0
 78
     0
  0
ENDTAB
  0
TABLE
  2
LTYPE
  5
5
330
0
100
AcDbSymbolTable
 70
     1
  0
LTYPE
  5
14
330
5
100
AcDbSymbolTableRecord
100
AcDbLinetypeTableRecord
  2
BYBLOCK
 70
     0
  3

 72
    65
 73
     0
 40
0.0
  0
LTYPE
  5
15
330
5
100
AcDbSymbolTableRecord
100
AcDbLinetypeTableRecord
  2
BYLAYER
 70
     0
  3

 72
    65
 73
     0
 40
0.0
  0
LTYPE
  5
16
330
5
100
AcDbSymbolTableRecord
100
AcDbLinetypeTableRecord
  2
CONTINUOUS
 70
     0
  3
Solid line
 72
    65
 73
     0
 40
0.0
  0
ENDTAB
  0
TABLE
  2
LAYER
  5
2
100
AcDbSymbolTable
 70
1
  0
LAYER
  5
50
100
AcDbSymbolTableRecord
100
AcDbLayerTableRecord
  2
0
 70
0
  6
CONTINUOUS
  0
ENDTAB
  0
TABLE
  2
STYLE
  5
3
330
0
100
AcDbSymbolTable
 70
     1
  0
STYLE
  5
11
330
3
100
AcDbSymbolTableRecord
100
AcDbTextStyleTableRecord
  2
STANDARD
 70
     0
 40
0.0
 41
1.0
 50
0.0
 71
     0
 42
2.5
  3
txt
  4

  0
ENDTAB
  0
TABLE
  2
VIEW
  5
6
330
0
100
AcDbSymbolTable
 70
     0
  0
ENDTAB
  0
TABLE
  2
UCS
  5
7
330
0
100
AcDbSymbolTable
 70
     0
  0
ENDTAB
  0
TABLE
  2
APPID
  5
9
330
0
100
AcDbSymbolTable
 70
     2
  0
APPID
  5
12
330
9
100
AcDbSymbolTableRecord
100
AcDbRegAppTableRecord
  2
ACAD
 70
     0
  0
ENDTAB
  0
TABLE
  2
DIMSTYLE
  5
A
330
0
100
AcDbSymbolTable
 70
     1
  0
DIMSTYLE
105
27
330
A
100
AcDbSymbolTableRecord
100
AcDbDimStyleTableRecord
  2
ISO-25
 70
     0
  3

  4

  5

  6

  7

 40
1.0
 41
2.5
 42
0.625
 43
3.75
 44
1.25
 45
0.0
 46
0.0
 47
0.0
 48
0.0
140
2.5
141
2.5
142
0.0
143
0.03937007874016
144
1.0
145
0.0
146
1.0
147
0.625
 71
     0
 72
     0
 73
     0
 74
     0
 75
     0
 76
     0
 77
     1
 78
     8
170
     0
171
     3
172
     1
173
     0
174
     0
175
     0
176
     0
177
     0
178
     0
270
     2
271
     2
272
     2
273
     2
274
     3
340
11
275
     0
280
     0
281
     0
282
     0
283
     0
284
     8
285
     0
286
     0
287
     3
288
     0
  0
ENDTAB
  0
TABLE
  2
BLOCK_RECORD
  5
1
330
0
100
AcDbSymbolTable
 70
     1
  0
BLOCK_RECORD
  5
1F
330
1
100
AcDbSymbolTableRecord
100
AcDbBlockTableRecord
  2
*MODEL_SPACE
  0
BLOCK_RECORD
  5
1B
330
1
100
AcDbSymbolTableRecord
100
AcDbBlockTableRecord
  2
*PAPER_SPACE
  0
ENDTAB
  0
ENDSEC
  0
SECTION
  2
BLOCKS
  0
BLOCK
  5
20
330
1F
100
AcDbEntity
  8
0
100
AcDbBlockBegin
  2
*MODEL_SPACE
 70
     0
 10
0.0
 20
0.0
 30
0.0
  3
*MODEL_SPACE
  1

  0
ENDBLK
  5
21
330
1F
100
AcDbEntity
  8
0
100
AcDbBlockEnd
  0
BLOCK
  5
1C
330
1B
100
AcDbEntity
 67
     1
  8
0
100
AcDbBlockBegin
  2
*PAPER_SPACE
  1

  0
ENDBLK
  5
1D
330
1B
100
AcDbEntity
 67
     1
  8
0
100
AcDbBlockEnd
  0
ENDSEC
  0
SECTION
  2
ENTITIES
  0
LWPOLYLINE
  5
100
100
AcDbEntity
  8
0
 62
7
100
AcDbPolyline
 90
57
 70
1
 10
140.471930
 20
152.899015
 30
0.0
 10
140.476930
 20
152.840215
 30
0.0
 10
140.578180
 20
151.683815
 30
0.0
 10
140.578180
 20
141.371385
 30
0.0
 10
140.578180
 20
118.433725
 30
0.0
 10
140.578180
 20
102.263685
 30
0.0
 10
140.578180
 20
95.496060
 30
0.0
 10
140.578180
 20
85.183640
 30
0.0
 10
140.476930
 20
84.027230
 30
0.0
 10
140.471930
 20
83.968430
 30
0.0
 10
140.155530
 20
82.789630
 30
0.0
 10
139.640330
 20
81.683630
 30
0.0
 10
138.940330
 20
80.684020
 30
0.0
 10
138.077930
 20
79.821620
 30
0.0
 10
137.078320
 20
79.121620
 30
0.0
 10
135.972320
 20
78.606420
 30
0.0
 10
134.793520
 20
78.290020
 30
0.0
 10
133.578320
 20
78.183620
 30
0.0
 10
123.265890
 20
78.183620
 30
0.0
 10
100.328230
 20
78.183620
 30
0.0
 10
77.390566
 20
78.183620
 30
0.0
 10
67.078146
 20
78.183620
 30
0.0
 10
65.862936
 20
78.290020
 30
0.0
 10
64.684136
 20
78.606420
 30
0.0
 10
63.578136
 20
79.121620
 30
0.0
 10
62.578526
 20
79.821620
 30
0.0
 10
61.716126
 20
80.684020
 30
0.0
 10
61.016126
 20
81.683630
 30
0.0
 10
60.500926
 20
82.789630
 30
0.0
 10
60.184526
 20
83.968430
 30
0.0
 10
60.179526
 20
84.027230
 30
0.0
 10
60.078276
 20
85.183640
 30
0.0
 10
60.078276
 20
95.496060
 30
0.0
 10
60.078276
 20
118.433725
 30
0.0
 10
60.078276
 20
141.371385
 30
0.0
 10
60.078276
 20
151.683815
 30
0.0
 10
60.179526
 20
152.840215
 30
0.0
 10
60.184526
 20
152.899015
 30
0.0
 10
60.500926
 20
154.077815
 30
0.0
 10
61.016126
 20
155.183825
 30
0.0
 10
61.716126
 20
156.183425
 30
0.0
 10
62.578526
 20
157.045825
 30
0.0
 10
63.578136
 20
157.745825
 30
0.0
 10
64.684136
 20
158.261035
 30
0.0
 10
65.862936
 20
158.577435
 30
0.0
 10
67.078146
 20
158.683835
 30
0.0
 10
77.390566
 20
158.683835
 30
0.0
 10
100.328230
 20
158.683835
 30
0.0
 10
123.265890
 20
158.683835
 30
0.0
 10
133.578320
 20
158.683835
 30
0.0
 10
134.793520
 20
158.577435
 30
0.0
 10
135.972320
 20
158.261035
 30
0.0
 10
137.078320
 20
157.745825
 30
0.0
 10
138.077930
 20
157.045825
 30
0.0
 10
138.940330
 20
156.183425
 30
0.0
 10
139.640330
 20
155.183825
 30
0.0
 10
140.155530
 20
154.077815
 30
0.0
  0
LWPOLYLINE
  5
101
100
AcDbEntity
  8
0
 62
7
100
AcDbPolyline
 90
189
 70
1
 10
130.296710
 20
150.383205
 30
0.0
 10
130.215910
 20
150.302405
 30
0.0
 10
129.961070
 20
150.047555
 30
0.0
 10
129.886570
 20
149.973055
 30
0.0
 10
129.000330
 20
149.086735
 30
0.0
 10
127.019620
 20
147.105845
 30
0.0
 10
123.265920
 20
143.351805
 30
0.0
 10
121.285710
 20
141.371425
 30
0.0
 10
114.518700
 20
134.603815
 30
0.0
 10
100.328260
 20
134.603815
 30
0.0
 10
86.137826
 20
134.603815
 30
0.0
 10
84.158216
 20
136.583595
 30
0.0
 10
79.370806
 20
141.371425
 30
0.0
 10
77.390596
 20
143.351805
 30
0.0
 10
73.636896
 20
147.105845
 30
0.0
 10
71.656186
 20
149.086735
 30
0.0
 10
70.769946
 20
149.973055
 30
0.0
 10
70.359776
 20
150.383245
 30
0.0
 10
70.347176
 20
150.762655
 30
0.0
 10
70.271576
 20
151.135055
 30
0.0
 10
70.132976
 20
151.490655
 30
0.0
 10
69.936986
 20
151.815455
 30
0.0
 10
69.687776
 20
152.103855
 30
0.0
 10
69.395186
 20
152.346055
 30
0.0
 10
69.064776
 20
152.535055
 30
0.0
 10
68.788976
 20
152.634155
 30
0.0
 10
68.706376
 20
152.663855
 30
0.0
 10
68.332576
 20
152.732455
 30
0.0
 10
67.951776
 20
152.735455
 30
0.0
 10
67.576576
 20
152.675255
 30
0.0
 10
67.216776
 20
152.550655
 30
0.0
 10
66.883576
 20
152.368655
 30
0.0
 10
66.585376
 20
152.132055
 30
0.0
 10
66.331966
 20
151.847855
 30
0.0
 10
66.130376
 20
151.525855
 30
0.0
 10
65.986166
 20
151.174455
 30
0.0
 10
65.921766
 20
150.890015
 30
0.0
 10
65.902166
 20
150.803415
 30
0.0
 10
65.883966
 20
150.422615
 30
0.0
 10
65.921766
 20
150.104865
 30
0.0
 10
65.928766
 20
150.046065
 30
0.0
 10
65.950566
 20
149.973265
 30
0.0
 10
66.037966
 20
149.680655
 30
0.0
 10
66.207366
 20
149.340455
 30
0.0
 10
66.431366
 20
149.032455
 30
0.0
 10
66.704376
 20
148.767855
 30
0.0
 10
67.017976
 20
148.553655
 30
0.0
 10
67.363776
 20
148.394055
 30
0.0
 10
67.731976
 20
148.296055
 30
0.0
 10
68.109976
 20
148.262455
 30
0.0
 10
68.489376
 20
148.293255
 30
0.0
 10
68.560176
 20
148.222455
 30
0.0
 10
68.760246
 20
148.022385
 30
0.0
 10
69.266956
 20
147.515675
 30
0.0
 10
69.676556
 20
147.106075
 30
0.0
 10
75.410976
 20
141.371665
 30
0.0
 10
84.158196
 20
132.624435
 30
0.0
 10
84.158196
 20
118.434005
 30
0.0
 10
84.158196
 20
104.243565
 30
0.0
 10
75.410976
 20
95.496330
 30
0.0
 10
69.676556
 20
89.761920
 30
0.0
 10
68.489356
 20
88.574720
 30
0.0
 10
68.109956
 20
88.605520
 30
0.0
 10
67.731946
 20
88.571920
 30
0.0
 10
67.363746
 20
88.473920
 30
0.0
 10
67.017956
 20
88.314320
 30
0.0
 10
66.704346
 20
88.100120
 30
0.0
 10
66.431346
 20
87.835520
 30
0.0
 10
66.207346
 20
87.527520
 30
0.0
 10
66.037946
 20
87.187320
 30
0.0
 10
65.950546
 20
86.894710
 30
0.0
 10
65.928746
 20
86.821910
 30
0.0
 10
65.921746
 20
86.763110
 30
0.0
 10
65.883946
 20
86.445360
 30
0.0
 10
65.902146
 20
86.064560
 30
0.0
 10
65.921746
 20
85.977960
 30
0.0
 10
65.986146
 20
85.693520
 30
0.0
 10
66.130346
 20
85.342120
 30
0.0
 10
66.331946
 20
85.020120
 30
0.0
 10
66.585356
 20
84.735920
 30
0.0
 10
66.883546
 20
84.499320
 30
0.0
 10
67.216756
 20
84.317320
 30
0.0
 10
67.576556
 20
84.192720
 30
0.0
 10
67.951756
 20
84.132520
 30
0.0
 10
68.332556
 20
84.135520
 30
0.0
 10
68.706356
 20
84.204120
 30
0.0
 10
68.788956
 20
84.233820
 30
0.0
 10
69.064756
 20
84.332920
 30
0.0
 10
69.395156
 20
84.521920
 30
0.0
 10
69.687756
 20
84.764120
 30
0.0
 10
69.936956
 20
85.052520
 30
0.0
 10
70.132956
 20
85.377320
 30
0.0
 10
70.271556
 20
85.732920
 30
0.0
 10
70.347156
 20
86.105330
 30
0.0
 10
70.359756
 20
86.484730
 30
0.0
 10
70.440556
 20
86.565530
 30
0.0
 10
70.695396
 20
86.820380
 30
0.0
 10
70.769896
 20
86.894880
 30
0.0
 10
71.656126
 20
87.781200
 30
0.0
 10
73.636846
 20
89.762090
 30
0.0
 10
77.390546
 20
93.516130
 30
0.0
 10
79.370746
 20
95.496500
 30
0.0
 10
84.158166
 20
100.284345
 30
0.0
 10
86.137766
 20
102.264125
 30
0.0
 10
100.328200
 20
102.264125
 30
0.0
 10
114.518640
 20
102.264125
 30
0.0
 10
121.285650
 20
95.496500
 30
0.0
 10
123.265860
 20
93.516130
 30
0.0
 10
127.019560
 20
89.762090
 30
0.0
 10
129.000270
 20
87.781200
 30
0.0
 10
129.886510
 20
86.894880
 30
0.0
 10
130.296680
 20
86.484680
 30
0.0
 10
130.309280
 20
86.105280
 30
0.0
 10
130.384880
 20
85.732880
 30
0.0
 10
130.523480
 20
85.377280
 30
0.0
 10
130.719480
 20
85.052480
 30
0.0
 10
130.968680
 20
84.764080
 30
0.0
 10
131.261280
 20
84.521880
 30
0.0
 10
131.591680
 20
84.332880
 30
0.0
 10
131.867480
 20
84.233780
 30
0.0
 10
131.950080
 20
84.204080
 30
0.0
 10
132.323880
 20
84.135480
 30
0.0
 10
132.704680
 20
84.132480
 30
0.0
 10
133.079880
 20
84.192680
 30
0.0
 10
133.439680
 20
84.317280
 30
0.0
 10
133.772890
 20
84.499280
 30
0.0
 10
134.071080
 20
84.735880
 30
0.0
 10
134.324490
 20
85.020080
 30
0.0
 10
134.526090
 20
85.342080
 30
0.0
 10
134.670290
 20
85.693480
 30
0.0
 10
134.734690
 20
85.977920
 30
0.0
 10
134.754290
 20
86.064520
 30
0.0
 10
134.772490
 20
86.445320
 30
0.0
 10
134.734690
 20
86.763070
 30
0.0
 10
134.727690
 20
86.821870
 30
0.0
 10
134.705890
 20
86.894670
 30
0.0
 10
134.618490
 20
87.187270
 30
0.0
 10
134.449090
 20
87.527470
 30
0.0
 10
134.225090
 20
87.835470
 30
0.0
 10
133.952090
 20
88.100080
 30
0.0
 10
133.638480
 20
88.314280
 30
0.0
 10
133.292680
 20
88.473880
 30
0.0
 10
132.924490
 20
88.571880
 30
0.0
 10
132.546480
 20
88.605480
 30
0.0
 10
132.167080
 20
88.574680
 30
0.0
 10
132.096280
 20
88.645480
 30
0.0
 10
131.896220
 20
88.845550
 30
0.0
 10
131.389510
 20
89.352260
 30
0.0
 10
130.979910
 20
89.761860
 30
0.0
 10
125.245490
 20
95.496270
 30
0.0
 10
118.477880
 20
102.263895
 30
0.0
 10
116.498270
 20
104.243505
 30
0.0
 10
116.498270
 20
118.433935
 30
0.0
 10
116.498270
 20
132.624375
 30
0.0
 10
125.245490
 20
141.371595
 30
0.0
 10
130.979910
 20
147.106005
 30
0.0
 10
132.167110
 20
148.293205
 30
0.0
 10
132.546510
 20
148.262405
 30
0.0
 10
132.924520
 20
148.296005
 30
0.0
 10
133.292710
 20
148.394005
 30
0.0
 10
133.638510
 20
148.553605
 30
0.0
 10
133.952120
 20
148.767815
 30
0.0
 10
134.225120
 20
149.032415
 30
0.0
 10
134.449120
 20
149.340415
 30
0.0
 10
134.618520
 20
149.680615
 30
0.0
 10
134.705920
 20
149.973215
 30
0.0
 10
134.727720
 20
150.046015
 30
0.0
 10
134.734720
 20
150.104815
 30
0.0
 10
134.772520
 20
150.422575
 30
0.0
 10
134.754320
 20
150.803375
 30
0.0
 10
134.734720
 20
150.889975
 30
0.0
 10
134.670320
 20
151.174405
 30
0.0
 10
134.526120
 20
151.525805
 30
0.0
 10
134.324520
 20
151.847805
 30
0.0
 10
134.071110
 20
152.132005
 30
0.0
 10
133.772920
 20
152.368605
 30
0.0
 10
133.439710
 20
152.550605
 30
0.0
 10
133.079910
 20
152.675205
 30
0.0
 10
132.704710
 20
152.735405
 30
0.0
 10
132.323910
 20
152.732405
 30
0.0
 10
131.950110
 20
152.663805
 30
0.0
 10
131.867510
 20
152.634105
 30
0.0
 10
131.591710
 20
152.535005
 30
0.0
 10
131.261310
 20
152.346005
 30
0.0
 10
130.968710
 20
152.103805
 30
0.0
 10
130.719510
 20
151.815405
 30
0.0
 10
130.523510
 20
151.490605
 30
0.0
 10
130.384910
 20
151.135005
 30
0.0
 10
130.309310
 20
150.762605
 30
0.0
  0
LWPOLYLINE
  5
102
100
AcDbEntity
  8
0
 62
7
100
AcDbPolyline
 90
64
 70
1
 10
3.334159
 20
249.138211
 30
0.0
 10
3.387359
 20
248.530611
 30
0.0
 10
3.387359
 20
246.483801
 30
0.0
 10
3.387359
 20
240.749391
 30
0.0
 10
3.387359
 20
229.280561
 30
0.0
 10
3.387359
 20
217.811731
 30
0.0
 10
3.387359
 20
212.077321
 30
0.0
 10
3.387359
 20
211.525631
 30
0.0
 10
3.387359
 20
210.224771
 30
0.0
 10
3.387359
 20
210.030511
 30
0.0
 10
3.334159
 20
209.422911
 30
0.0
 10
3.188349
 20
208.879640
 30
0.0
 10
3.176049
 20
208.833540
 30
0.0
 10
2.918439
 20
208.280540
 30
0.0
 10
2.568439
 20
207.780740
 30
0.0
 10
2.137239
 20
207.349540
 30
0.0
 10
1.637439
 20
206.999540
 30
0.0
 10
1.084439
 20
206.741940
 30
0.0
 10
0.495039
 20
206.583740
 30
0.0
 10
-0.112561
 20
206.530540
 30
0.0
 10
-7.893781
 20
206.530540
 30
0.0
 10
-19.362611
 20
206.530540
 30
0.0
 10
-30.831446
 20
206.530540
 30
0.0
 10
-38.612666
 20
206.530540
 30
0.0
 10
-39.220266
 20
206.583740
 30
0.0
 10
-39.809666
 20
206.741940
 30
0.0
 10
-40.362676
 20
206.999540
 30
0.0
 10
-40.862476
 20
207.349540
 30
0.0
 10
-41.293676
 20
207.780740
 30
0.0
 10
-41.643676
 20
208.280540
 30
0.0
 10
-41.901276
 20
208.833540
 30
0.0
 10
-41.913576
 20
208.879640
 30
0.0
 10
-42.059396
 20
209.422911
 30
0.0
 10
-42.112596
 20
210.030511
 30
0.0
 10
-42.112596
 20
212.077321
 30
0.0
 10
-42.112596
 20
217.811731
 30
0.0
 10
-42.112596
 20
229.280561
 30
0.0
 10
-42.112596
 20
240.749391
 30
0.0
 10
-42.112596
 20
246.483801
 30
0.0
 10
-42.112596
 20
247.035491
 30
0.0
 10
-42.112596
 20
248.336351
 30
0.0
 10
-42.112596
 20
248.530611
 30
0.0
 10
-42.059396
 20
249.138211
 30
0.0
 10
-41.913576
 20
249.681471
 30
0.0
 10
-41.901276
 20
249.727571
 30
0.0
 10
-41.643676
 20
250.280581
 30
0.0
 10
-41.293676
 20
250.780381
 30
0.0
 10
-40.862476
 20
251.211581
 30
0.0
 10
-40.362676
 20
251.561581
 30
0.0
 10
-39.809666
 20
251.819181
 30
0.0
 10
-39.220266
 20
251.977381
 30
0.0
 10
-38.612666
 20
252.030581
 30
0.0
 10
-30.831446
 20
252.030581
 30
0.0
 10
-19.362611
 20
252.030581
 30
0.0
 10
-7.893781
 20
252.030581
 30
0.0
 10
-0.112561
 20
252.030581
 30
0.0
 10
0.495039
 20
251.977381
 30
0.0
 10
1.084439
 20
251.819181
 30
0.0
 10
1.637439
 20
251.561581
 30
0.0
 10
2.137239
 20
251.211581
 30
0.0
 10
2.568439
 20
250.780381
 30
0.0
 10
2.918439
 20
250.280581
 30
0.0
 10
3.176049
 20
249.727571
 30
0.0
 10
3.188349
 20
249.681471
 30
0.0
  0
LWPOLYLINE
  5
103
100
AcDbEntity
  8
0
 62
7
100
AcDbPolyline
 90
158
 70
1
 10
-5.833061
 20
244.789801
 30
0.0
 10
-5.924061
 20
244.698801
 30
0.0
 10
-6.256741
 20
244.366121
 30
0.0
 10
-7.006261
 20
243.616601
 30
0.0
 10
-7.893871
 20
242.728991
 30
0.0
 10
-9.873471
 20
240.749391
 30
0.0
 10
-19.362691
 20
231.260171
 30
0.0
 10
-28.851926
 20
240.749391
 30
0.0
 10
-30.831526
 20
242.728991
 30
0.0
 10
-31.719136
 20
243.616601
 30
0.0
 10
-32.892336
 20
244.789801
 30
0.0
 10
-32.946936
 20
245.118801
 30
0.0
 10
-33.056136
 20
245.433801
 30
0.0
 10
-33.217136
 20
245.726401
 30
0.0
 10
-33.425736
 20
245.988201
 30
0.0
 10
-33.673536
 20
246.210801
 30
0.0
 10
-33.956336
 20
246.390001
 30
0.0
 10
-34.183106
 20
246.483801
 30
0.0
 10
-34.264306
 20
246.517401
 30
0.0
 10
-34.590506
 20
246.593001
 30
0.0
 10
-34.923706
 20
246.612601
 30
0.0
 10
-35.255506
 20
246.574801
 30
0.0
 10
-35.576106
 20
246.483801
 30
0.0
 10
-35.878506
 20
246.339601
 30
0.0
 10
-36.150106
 20
246.146401
 30
0.0
 10
-36.386706
 20
245.911201
 30
0.0
 10
-36.565916
 20
245.659811
 30
0.0
 10
-36.581316
 20
245.638211
 30
0.0
 10
-36.726916
 20
245.338601
 30
0.0
 10
-36.819316
 20
245.018001
 30
0.0
 10
-36.857116
 20
244.686201
 30
0.0
 10
-36.838916
 20
244.351601
 30
0.0
 10
-36.766116
 20
244.026801
 30
0.0
 10
-36.638716
 20
243.717401
 30
0.0
 10
-36.565916
 20
243.601611
 30
0.0
 10
-36.460906
 20
243.434601
 30
0.0
 10
-36.239706
 20
243.185401
 30
0.0
 10
-35.977906
 20
242.976801
 30
0.0
 10
-35.686706
 20
242.814401
 30
0.0
 10
-35.371706
 20
242.703801
 30
0.0
 10
-35.042706
 20
242.646401
 30
0.0
 10
-34.708106
 20
242.646401
 30
0.0
 10
-34.637406
 20
242.575701
 30
0.0
 10
-34.437506
 20
242.375801
 30
0.0
 10
-33.854056
 20
241.792351
 30
0.0
 10
-32.811116
 20
240.749411
 30
0.0
 10
-21.342284
 20
229.280581
 30
0.0
 10
-32.811116
 20
217.811751
 30
0.0
 10
-34.708116
 20
215.914741
 30
0.0
 10
-35.042726
 20
215.914741
 30
0.0
 10
-35.371726
 20
215.857341
 30
0.0
 10
-35.686726
 20
215.746741
 30
0.0
 10
-35.977926
 20
215.584341
 30
0.0
 10
-36.239726
 20
215.375741
 30
0.0
 10
-36.460926
 20
215.126541
 30
0.0
 10
-36.565926
 20
214.959531
 30
0.0
 10
-36.638726
 20
214.843741
 30
0.0
 10
-36.766126
 20
214.534341
 30
0.0
 10
-36.838926
 20
214.209541
 30
0.0
 10
-36.857126
 20
213.874941
 30
0.0
 10
-36.819326
 20
213.543141
 30
0.0
 10
-36.726926
 20
213.222541
 30
0.0
 10
-36.581326
 20
212.922931
 30
0.0
 10
-36.565926
 20
212.901331
 30
0.0
 10
-36.386726
 20
212.649941
 30
0.0
 10
-36.150126
 20
212.414741
 30
0.0
 10
-35.878526
 20
212.221541
 30
0.0
 10
-35.576126
 20
212.077341
 30
0.0
 10
-35.255526
 20
211.986341
 30
0.0
 10
-34.923716
 20
211.948541
 30
0.0
 10
-34.590516
 20
211.968141
 30
0.0
 10
-34.264316
 20
212.043741
 30
0.0
 10
-34.183116
 20
212.077341
 30
0.0
 10
-33.956346
 20
212.171141
 30
0.0
 10
-33.673546
 20
212.350341
 30
0.0
 10
-33.425746
 20
212.572941
 30
0.0
 10
-33.217146
 20
212.834741
 30
0.0
 10
-33.056146
 20
213.127341
 30
0.0
 10
-32.946946
 20
213.442341
 30
0.0
 10
-32.892346
 20
213.771341
 30
0.0
 10
-32.801346
 20
213.862341
 30
0.0
 10
-32.468666
 20
214.195021
 30
0.0
 10
-31.719146
 20
214.944541
 30
0.0
 10
-30.831546
 20
215.832151
 30
0.0
 10
-28.851936
 20
217.811751
 30
0.0
 10
-19.362711
 20
227.300981
 30
0.0
 10
-9.873481
 20
217.811751
 30
0.0
 10
-7.893881
 20
215.832151
 30
0.0
 10
-7.006281
 20
214.944541
 30
0.0
 10
-5.833081
 20
213.771341
 30
0.0
 10
-5.778481
 20
213.442341
 30
0.0
 10
-5.669281
 20
213.127341
 30
0.0
 10
-5.508281
 20
212.834741
 30
0.0
 10
-5.299671
 20
212.572941
 30
0.0
 10
-5.051871
 20
212.350341
 30
0.0
 10
-4.769071
 20
212.171141
 30
0.0
 10
-4.542301
 20
212.077341
 30
0.0
 10
-4.461101
 20
212.043741
 30
0.0
 10
-4.134901
 20
211.968141
 30
0.0
 10
-3.801701
 20
211.948541
 30
0.0
 10
-3.469901
 20
211.986341
 30
0.0
 10
-3.149301
 20
212.077341
 30
0.0
 10
-2.846901
 20
212.221541
 30
0.0
 10
-2.575301
 20
212.414741
 30
0.0
 10
-2.338701
 20
212.649941
 30
0.0
 10
-2.159501
 20
212.901331
 30
0.0
 10
-2.144101
 20
212.922931
 30
0.0
 10
-1.998501
 20
213.222531
 30
0.0
 10
-1.906101
 20
213.543141
 30
0.0
 10
-1.868301
 20
213.874941
 30
0.0
 10
-1.886501
 20
214.209541
 30
0.0
 10
-1.959301
 20
214.534341
 30
0.0
 10
-2.086701
 20
214.843741
 30
0.0
 10
-2.159501
 20
214.959531
 30
0.0
 10
-2.264501
 20
215.126541
 30
0.0
 10
-2.485701
 20
215.375741
 30
0.0
 10
-2.747501
 20
215.584341
 30
0.0
 10
-3.038701
 20
215.746741
 30
0.0
 10
-3.353701
 20
215.857341
 30
0.0
 10
-3.682701
 20
215.914741
 30
0.0
 10
-4.017301
 20
215.914741
 30
0.0
 10
-4.088001
 20
215.985441
 30
0.0
 10
-4.287901
 20
216.185341
 30
0.0
 10
-4.871351
 20
216.768791
 30
0.0
 10
-5.914291
 20
217.811731
 30
0.0
 10
-17.383121
 20
229.280561
 30
0.0
 10
-5.914291
 20
240.749391
 30
0.0
 10
-4.017291
 20
242.646401
 30
0.0
 10
-3.682691
 20
242.646401
 30
0.0
 10
-3.353691
 20
242.703801
 30
0.0
 10
-3.038691
 20
242.814401
 30
0.0
 10
-2.747491
 20
242.976801
 30
0.0
 10
-2.485681
 20
243.185401
 30
0.0
 10
-2.264481
 20
243.434601
 30
0.0
 10
-2.159481
 20
243.601601
 30
0.0
 10
-2.086681
 20
243.717401
 30
0.0
 10
-1.959281
 20
244.026801
 30
0.0
 10
-1.886481
 20
244.351601
 30
0.0
 10
-1.868281
 20
244.686201
 30
0.0
 10
-1.906081
 20
245.018001
 30
0.0
 10
-1.998481
 20
245.338601
 30
0.0
 10
-2.144081
 20
245.638201
 30
0.0
 10
-2.159481
 20
245.659801
 30
0.0
 10
-2.338681
 20
245.911201
 30
0.0
 10
-2.575281
 20
246.146401
 30
0.0
 10
-2.846891
 20
246.339601
 30
0.0
 10
-3.149281
 20
246.483801
 30
0.0
 10
-3.469891
 20
246.574801
 30
0.0
 10
-3.801691
 20
246.612601
 30
0.0
 10
-4.134891
 20
246.593001
 30
0.0
 10
-4.461091
 20
246.517401
 30
0.0
 10
-4.542291
 20
246.483801
 30
0.0
 10
-4.769061
 20
246.390001
 30
0.0
 10
-5.051861
 20
246.210801
 30
0.0
 10
-5.299661
 20
245.988201
 30
0.0
 10
-5.508261
 20
245.726401
 30
0.0
 10
-5.669261
 20
245.433801
 30
0.0
 10
-5.778461
 20
245.118801
 30
0.0
  0
LWPOLYLINE
  5
104
100
AcDbEntity
  8
0
 62
7
100
AcDbPolyline
 90
228
 70
1
 10
27.821117
 20
98.065810
 30
0.0
 10
28.292952
 20
98.742360
 30
0.0
 10
30.002323
 20
101.193401
 30
0.0
 10
29.120668
 20
124.622461
 30
0.0
 10
28.658319
 20
136.908908
 30
0.0
 10
27.385716
 20
160.204958
 30
0.0
 10
25.716911
 20
180.492408
 30
0.0
 10
23.600105
 20
198.555260
 30
0.0
 10
21.007297
 20
215.003901
 30
0.0
 10
20.729987
 20
216.373101
 30
0.0
 10
17.921697
 20
230.238741
 30
0.0
 10
15.709097
 20
239.310761
 30
0.0
 10
15.517887
 20
240.094761
 30
0.0
 10
17.105487
 20
240.094761
 30
0.0
 10
17.105487
 20
243.034771
 30
0.0
 10
14.800837
 20
243.034771
 30
0.0
 10
14.369887
 20
243.034771
 30
0.0
 10
10.648677
 20
243.034771
 30
0.0
 10
11.347277
 20
245.956581
 30
0.0
 10
11.681877
 20
248.941391
 30
0.0
 10
11.646877
 20
251.945791
 30
0.0
 10
7.781907
 20
262.248421
 30
0.0
 10
7.530867
 20
262.917621
 30
0.0
 10
2.555257
 20
273.526851
 30
0.0
 10
-3.244963
 20
283.707681
 30
0.0
 10
-4.251003
 20
285.186081
 30
0.0
 10
-8.567783
 20
291.529691
 30
0.0
 10
-9.837583
 20
293.395701
 30
0.0
 10
-8.567783
 20
293.395701
 30
0.0
 10
-6.463573
 20
293.395701
 30
0.0
 10
-6.463573
 20
296.335711
 30
0.0
 10
-8.567783
 20
296.335711
 30
0.0
 10
-9.842013
 20
296.335711
 30
0.0
 10
-15.546775
 20
296.335711
 30
0.0
 10
-15.051178
 20
298.556111
 30
0.0
 10
-14.884578
 20
300.825531
 30
0.0
 10
-15.051178
 20
303.094931
 30
0.0
 10
-15.546775
 20
305.315341
 30
0.0
 10
-17.330953
 20
308.123751
 30
0.0
 10
-26.294542
 20
322.232981
 30
0.0
 10
-37.847366
 20
338.610221
 30
0.0
 10
-50.178606
 20
354.409261
 30
0.0
 10
-6.463573
 20
354.409261
 30
0.0
 10
-5.183963
 20
347.617841
 30
0.0
 10
-2.812363
 20
341.126031
 30
0.0
 10
0.588247
 20
335.108811
 30
0.0
 10
4.925457
 20
329.728601
 30
0.0
 10
10.084477
 20
325.129591
 30
0.0
 10
15.926687
 20
321.436381
 30
0.0
 10
22.292507
 20
318.746971
 30
0.0
 10
29.013920
 20
317.134171
 30
0.0
 10
35.907538
 20
316.641371
 30
0.0
 10
35.907538
 20
315.480051
 30
0.0
 10
35.907538
 20
312.994951
 30
0.0
 10
35.907538
 20
308.805311
 30
0.0
 10
35.907538
 20
308.123751
 30
0.0
 10
35.907538
 20
304.518171
 30
0.0
 10
35.907538
 20
300.731041
 30
0.0
 10
35.907538
 20
297.541001
 30
0.0
 10
35.907538
 20
294.692141
 30
0.0
 10
35.907538
 20
293.395701
 30
0.0
 10
20.083297
 20
293.395701
 30
0.0
 10
19.502297
 20
293.348101
 30
0.0
 10
18.938097
 20
293.203901
 30
0.0
 10
18.404697
 20
292.967301
 30
0.0
 10
17.918897
 20
292.646701
 30
0.0
 10
17.491887
 20
292.249101
 30
0.0
 10
17.137687
 20
291.787101
 30
0.0
 10
16.864687
 20
291.271901
 30
0.0
 10
16.681287
 20
290.720291
 30
0.0
 10
16.591687
 20
290.143491
 30
0.0
 10
16.598687
 20
289.561091
 30
0.0
 10
16.702287
 20
288.988491
 30
0.0
 10
17.724067
 20
285.186081
 30
0.0
 10
23.887816
 20
262.248421
 30
0.0
 10
24.540908
 20
259.818011
 30
0.0
 10
24.734109
 20
259.279011
 30
0.0
 10
25.012710
 20
258.779211
 30
0.0
 10
25.368311
 20
258.332611
 30
0.0
 10
25.791112
 20
257.947611
 30
0.0
 10
26.272713
 20
257.638211
 30
0.0
 10
26.796315
 20
257.411411
 30
0.0
 10
27.350716
 20
257.272811
 30
0.0
 10
27.921918
 20
257.225211
 30
0.0
 10
35.907538
 20
257.225211
 30
0.0
 10
35.907538
 20
256.559741
 30
0.0
 10
35.907538
 20
243.034771
 30
0.0
 10
35.907538
 20
240.094761
 30
0.0
 10
35.907538
 20
239.310761
 30
0.0
 10
35.907538
 20
216.373101
 30
0.0
 10
35.907538
 20
186.933828
 30
0.0
 10
37.307541
 20
186.933828
 30
0.0
 10
38.707545
 20
186.933828
 30
0.0
 10
38.707545
 20
216.373101
 30
0.0
 10
38.707545
 20
239.310761
 30
0.0
 10
38.707545
 20
243.034771
 30
0.0
 10
38.707545
 20
245.096331
 30
0.0
 10
38.707545
 20
248.735631
 30
0.0
 10
38.707545
 20
251.448391
 30
0.0
 10
38.707545
 20
253.464831
 30
0.0
 10
38.707545
 20
255.133601
 30
0.0
 10
38.707545
 20
256.559741
 30
0.0
 10
38.707545
 20
257.225211
 30
0.0
 10
46.693165
 20
257.225211
 30
0.0
 10
47.264367
 20
257.272811
 30
0.0
 10
47.818768
 20
257.411411
 30
0.0
 10
48.342370
 20
257.638211
 30
0.0
 10
48.823971
 20
257.947611
 30
0.0
 10
49.246772
 20
258.332611
 30
0.0
 10
49.602371
 20
258.779211
 30
0.0
 10
49.880973
 20
259.279011
 30
0.0
 10
50.074174
 20
259.818011
 30
0.0
 10
50.727267
 20
262.248421
 30
0.0
 10
56.891020
 20
285.186081
 30
0.0
 10
57.912794
 20
288.988491
 30
0.0
 10
58.016394
 20
289.561091
 30
0.0
 10
58.023394
 20
290.143491
 30
0.0
 10
57.933794
 20
290.720291
 30
0.0
 10
57.750394
 20
291.271891
 30
0.0
 10
57.477393
 20
291.787101
 30
0.0
 10
57.123192
 20
292.249091
 30
0.0
 10
56.696191
 20
292.646701
 30
0.0
 10
56.210390
 20
292.967301
 30
0.0
 10
55.676988
 20
293.203901
 30
0.0
 10
55.112787
 20
293.348101
 30
0.0
 10
54.531785
 20
293.395701
 30
0.0
 10
38.707545
 20
293.395701
 30
0.0
 10
38.707545
 20
294.692141
 30
0.0
 10
38.707545
 20
308.123751
 30
0.0
 10
38.707545
 20
316.641371
 30
0.0
 10
45.601163
 20
317.134171
 30
0.0
 10
52.322580
 20
318.746971
 30
0.0
 10
58.688396
 20
321.436381
 30
0.0
 10
64.530610
 20
325.129591
 30
0.0
 10
69.689618
 20
329.728601
 30
0.0
 10
74.026830
 20
335.108811
 30
0.0
 10
77.427435
 20
341.126031
 30
0.0
 10
79.799040
 20
347.617841
 30
0.0
 10
81.078642
 20
354.409261
 30
0.0
 10
82.280103
 20
354.409261
 30
0.0
 10
84.934413
 20
354.409261
 30
0.0
 10
89.585716
 20
354.409261
 30
0.0
 10
97.375540
 20
354.409261
 30
0.0
 10
110.847550
 20
354.409261
 30
0.0
 10
121.351390
 20
354.409261
 30
0.0
 10
124.793770
 20
354.409261
 30
0.0
 10
112.462530
 20
338.610221
 30
0.0
 10
100.909700
 20
322.232981
 30
0.0
 10
100.147670
 20
321.033511
 30
0.0
 10
91.946057
 20
308.123751
 30
0.0
 10
90.161866
 20
305.315341
 30
0.0
 10
89.666266
 20
303.094931
 30
0.0
 10
89.499666
 20
300.825531
 30
0.0
 10
89.500536
 20
300.813631
 30
0.0
 10
89.666266
 20
298.556041
 30
0.0
 10
90.161866
 20
296.335641
 30
0.0
 10
86.453304
 20
296.335641
 30
0.0
 10
84.457083
 20
296.335641
 30
0.0
 10
83.182852
 20
296.335641
 30
0.0
 10
81.078642
 20
296.335641
 30
0.0
 10
81.078642
 20
293.395631
 30
0.0
 10
83.182852
 20
293.395631
 30
0.0
 10
84.452653
 20
293.395631
 30
0.0
 10
83.182852
 20
291.529621
 30
0.0
 10
81.078642
 20
288.437431
 30
0.0
 10
78.866077
 20
285.186011
 30
0.0
 10
77.860035
 20
283.707601
 30
0.0
 10
72.059825
 20
273.526781
 30
0.0
 10
67.084214
 20
262.917551
 30
0.0
 10
66.833169
 20
262.248351
 30
0.0
 10
62.968207
 20
251.945721
 30
0.0
 10
62.933207
 20
248.941311
 30
0.0
 10
63.267805
 20
245.956511
 30
0.0
 10
63.966408
 20
243.034701
 30
0.0
 10
63.595345
 20
243.034701
 30
0.0
 10
62.864396
 20
243.034701
 30
0.0
 10
60.245201
 20
243.034701
 30
0.0
 10
59.814242
 20
243.034701
 30
0.0
 10
57.509594
 20
243.034701
 30
0.0
 10
57.509594
 20
240.094761
 30
0.0
 10
59.097198
 20
240.094761
 30
0.0
 10
58.905987
 20
239.310761
 30
0.0
 10
56.693392
 20
230.238741
 30
0.0
 10
53.885098
 20
216.373101
 30
0.0
 10
53.607784
 20
215.003901
 30
0.0
 10
51.014977
 20
198.555260
 30
0.0
 10
48.898172
 20
180.492408
 30
0.0
 10
47.229368
 20
160.204958
 30
0.0
 10
45.956764
 20
136.908908
 30
0.0
 10
45.494416
 20
124.622461
 30
0.0
 10
44.640618
 20
101.933711
 30
0.0
 10
44.612758
 20
101.193401
 30
0.0
 10
46.322128
 20
98.742360
 30
0.0
 10
46.793964
 20
98.065810
 30
0.0
 10
47.458834
 20
96.871550
 30
0.0
 10
48.503697
 20
94.994730
 30
0.0
 10
48.648969
 20
94.733800
 30
0.0
 10
48.392684
 20
94.733800
 30
0.0
 10
46.933464
 20
94.733800
 30
0.0
 10
46.005550
 20
94.733800
 30
0.0
 10
44.369678
 20
94.733800
 30
0.0
 10
44.006557
 20
94.733800
 30
0.0
 10
44.006557
 20
91.793790
 30
0.0
 10
44.259046
 20
91.793790
 30
0.0
 10
45.773364
 20
91.793790
 30
0.0
 10
45.566163
 20
89.170190
 30
0.0
 10
44.937562
 20
86.612380
 30
0.0
 10
43.979304
 20
84.359940
 30
0.0
 10
43.907164
 20
84.190370
 30
0.0
 10
42.498759
 20
81.965770
 30
0.0
 10
40.750156
 20
79.997350
 30
0.0
 10
38.707549
 20
78.336960
 30
0.0
 10
38.707549
 20
91.793790
 30
0.0
 10
38.707549
 20
93.938580
 30
0.0
 10
37.307546
 20
93.938580
 30
0.0
 10
35.907542
 20
93.938580
 30
0.0
 10
35.907542
 20
91.793790
 30
0.0
 10
35.907542
 20
78.336960
 30
0.0
 10
33.864937
 20
79.997350
 30
0.0
 10
32.116333
 20
81.965770
 30
0.0
 10
30.707929
 20
84.190370
 30
0.0
 10
29.677526
 20
86.612380
 30
0.0
 10
29.048925
 20
89.170190
 30
0.0
 10
28.841724
 20
91.793790
 30
0.0
 10
30.608529
 20
91.793790
 30
0.0
 10
30.608529
 20
94.733800
 30
0.0
 10
28.609535
 20
94.733800
 30
0.0
 10
25.966117
 20
94.733800
 30
0.0
  0
LWPOLYLINE
  5
105
100
AcDbEntity
  8
0
 62
7
100
AcDbPolyline
 90
159
 70
1
 10
-57.438116
 20
334.680411
 30
0.0
 10
-57.909946
 20
334.003861
 30
0.0
 10
-59.619316
 20
331.552821
 30
0.0
 10
-58.737666
 20
308.123761
 30
0.0
 10
-58.275316
 20
295.837311
 30
0.0
 10
-57.002716
 20
272.541261
 30
0.0
 10
-55.333906
 20
252.253811
 30
0.0
 10
-53.217106
 20
234.190961
 30
0.0
 10
-50.624296
 20
217.742321
 30
0.0
 10
-50.346986
 20
216.373121
 30
0.0
 10
-47.538686
 20
202.507482
 30
0.0
 10
-45.326096
 20
193.435458
 30
0.0
 10
-45.134886
 20
192.651458
 30
0.0
 10
-46.722486
 20
192.651458
 30
0.0
 10
-46.722486
 20
189.711449
 30
0.0
 10
-44.417836
 20
189.711449
 30
0.0
 10
-43.986876
 20
189.711449
 30
0.0
 10
-40.265666
 20
189.711449
 30
0.0
 10
-40.964276
 20
186.789641
 30
0.0
 10
-41.298866
 20
183.804835
 30
0.0
 10
-41.263866
 20
180.800428
 30
0.0
 10
-37.398906
 20
170.497799
 30
0.0
 10
-37.147866
 20
169.828602
 30
0.0
 10
-32.172246
 20
159.219371
 30
0.0
 10
-26.372033
 20
149.038545
 30
0.0
 10
-25.365993
 20
147.560142
 30
0.0
 10
-21.049213
 20
141.216530
 30
0.0
 10
-19.779413
 20
139.350523
 30
0.0
 10
-21.049213
 20
139.350523
 30
0.0
 10
-23.153423
 20
139.350523
 30
0.0
 10
-23.153423
 20
136.410513
 30
0.0
 10
-21.049213
 20
136.410513
 30
0.0
 10
-17.778763
 20
136.410513
 30
0.0
 10
-14.070203
 20
136.410513
 30
0.0
 10
-14.565803
 20
134.190108
 30
0.0
 10
-14.732403
 20
131.920700
 30
0.0
 10
-14.565803
 20
129.651297
 30
0.0
 10
-14.070203
 20
127.430893
 30
0.0
 10
-12.286013
 20
124.622480
 30
0.0
 10
-6.874743
 20
116.104859
 30
0.0
 10
-3.322373
 20
110.513251
 30
0.0
 10
8.230457
 20
94.136010
 30
0.0
 10
20.561687
 20
78.336960
 30
0.0
 10
-23.153423
 20
78.336960
 30
0.0
 10
-24.433033
 20
85.128380
 30
0.0
 10
-26.804633
 20
91.620200
 30
0.0
 10
-30.205246
 20
97.637420
 30
0.0
 10
-34.542456
 20
103.017622
 30
0.0
 10
-39.701466
 20
107.616643
 30
0.0
 10
-45.543686
 20
111.309853
 30
0.0
 10
-51.909496
 20
113.999256
 30
0.0
 10
-58.630916
 20
115.612062
 30
0.0
 10
-65.524536
 20
116.104859
 30
0.0
 10
-66.924536
 20
116.104859
 30
0.0
 10
-68.324546
 20
116.104859
 30
0.0
 10
-75.218156
 20
115.612062
 30
0.0
 10
-81.939576
 20
113.999256
 30
0.0
 10
-88.305396
 20
111.309853
 30
0.0
 10
-94.147606
 20
107.616643
 30
0.0
 10
-99.306616
 20
103.017622
 30
0.0
 10
-103.643840
 20
97.637420
 30
0.0
 10
-107.044440
 20
91.620200
 30
0.0
 10
-109.416050
 20
85.128380
 30
0.0
 10
-110.695650
 20
78.336960
 30
0.0
 10
-111.897110
 20
78.336960
 30
0.0
 10
-114.551420
 20
78.336960
 30
0.0
 10
-119.202720
 20
78.336960
 30
0.0
 10
-126.992540
 20
78.336960
 30
0.0
 10
-140.464550
 20
78.336960
 30
0.0
 10
-150.968390
 20
78.336960
 30
0.0
 10
-154.410770
 20
78.336960
 30
0.0
 10
-142.079530
 20
94.136010
 30
0.0
 10
-130.526700
 20
110.513251
 30
0.0
 10
-129.764680
 20
111.712716
 30
0.0
 10
-126.974340
 20
116.104859
 30
0.0
 10
-121.563060
 20
124.622480
 30
0.0
 10
-119.778870
 20
127.430893
 30
0.0
 10
-119.283270
 20
129.651297
 30
0.0
 10
-119.116670
 20
131.920700
 30
0.0
 10
-119.117540
 20
131.932600
 30
0.0
 10
-119.283270
 20
134.190178
 30
0.0
 10
-119.778870
 20
136.410583
 30
0.0
 10
-116.070310
 20
136.410583
 30
0.0
 10
-114.074090
 20
136.410583
 30
0.0
 10
-112.799860
 20
136.410583
 30
0.0
 10
-110.695650
 20
136.410583
 30
0.0
 10
-110.695650
 20
139.350593
 30
0.0
 10
-112.799860
 20
139.350593
 30
0.0
 10
-114.069660
 20
139.350593
 30
0.0
 10
-112.799860
 20
141.216600
 30
0.0
 10
-110.695650
 20
144.308785
 30
0.0
 10
-108.483090
 20
147.560212
 30
0.0
 10
-107.477050
 20
149.038615
 30
0.0
 10
-101.676830
 20
159.219441
 30
0.0
 10
-96.701216
 20
169.828672
 30
0.0
 10
-96.450166
 20
170.497869
 30
0.0
 10
-92.585206
 20
180.800498
 30
0.0
 10
-92.550206
 20
183.804905
 30
0.0
 10
-92.884796
 20
186.789711
 30
0.0
 10
-93.583406
 20
189.711519
 30
0.0
 10
-93.212336
 20
189.711519
 30
0.0
 10
-92.481396
 20
189.711519
 30
0.0
 10
-89.862196
 20
189.711519
 30
0.0
 10
-87.126586
 20
189.711519
 30
0.0
 10
-87.126586
 20
192.651458
 30
0.0
 10
-88.714196
 20
192.651458
 30
0.0
 10
-88.522986
 20
193.435458
 30
0.0
 10
-86.310386
 20
202.507482
 30
0.0
 10
-83.502096
 20
216.373121
 30
0.0
 10
-83.224776
 20
217.742321
 30
0.0
 10
-80.631976
 20
234.190961
 30
0.0
 10
-79.606216
 20
242.943791
 30
0.0
 10
-78.515166
 20
252.253811
 30
0.0
 10
-76.846366
 20
272.541261
 30
0.0
 10
-75.573756
 20
295.837311
 30
0.0
 10
-75.111416
 20
308.123761
 30
0.0
 10
-74.257616
 20
330.812511
 30
0.0
 10
-74.229716
 20
331.552821
 30
0.0
 10
-75.939086
 20
334.003861
 30
0.0
 10
-76.410916
 20
334.680411
 30
0.0
 10
-77.075786
 20
335.874671
 30
0.0
 10
-78.120656
 20
337.751491
 30
0.0
 10
-78.265926
 20
338.012431
 30
0.0
 10
-78.009636
 20
338.012431
 30
0.0
 10
-76.550416
 20
338.012431
 30
0.0
 10
-75.622506
 20
338.012431
 30
0.0
 10
-73.986636
 20
338.012431
 30
0.0
 10
-73.623516
 20
338.012431
 30
0.0
 10
-73.623516
 20
340.952441
 30
0.0
 10
-73.875996
 20
340.952441
 30
0.0
 10
-75.390316
 20
340.952441
 30
0.0
 10
-75.183116
 20
343.576051
 30
0.0
 10
-74.554516
 20
346.133841
 30
0.0
 10
-73.596256
 20
348.386281
 30
0.0
 10
-73.524156
 20
348.555851
 30
0.0
 10
-72.115756
 20
350.780451
 30
0.0
 10
-70.367146
 20
352.748871
 30
0.0
 10
-68.324546
 20
354.409261
 30
0.0
 10
-68.324546
 20
338.012431
 30
0.0
 10
-68.324546
 20
320.155371
 30
0.0
 10
-68.324546
 20
308.123761
 30
0.0
 10
-68.324546
 20
242.943791
 30
0.0
 10
-66.924536
 20
242.943791
 30
0.0
 10
-65.524536
 20
242.943791
 30
0.0
 10
-65.524536
 20
308.123761
 30
0.0
 10
-65.524536
 20
323.085391
 30
0.0
 10
-65.524536
 20
338.012431
 30
0.0
 10
-65.524536
 20
340.952441
 30
0.0
 10
-65.524536
 20
354.409261
 30
0.0
 10
-63.481926
 20
352.748871
 30
0.0
 10
-61.733326
 20
350.780451
 30
0.0
 10
-60.324926
 20
348.555851
 30
0.0
 10
-59.294516
 20
346.133841
 30
0.0
 10
-58.665916
 20
343.576051
 30
0.0
 10
-58.458716
 20
340.952441
 30
0.0
 10
-60.225526
 20
340.952441
 30
0.0
 10
-60.225526
 20
338.012431
 30
0.0
 10
-58.226526
 20
338.012431
 30
0.0
 10
-55.583106
 20
338.012431
 30
0.0
  0
LWPOLYLINE
  5
106
100
AcDbEntity
  8
0
 62
7
100
AcDbPolyline
 90
48
 70
1
 10
-66.924536
 20
175.521014
 30
0.0
 10
-76.310156
 20
175.521014
 30
0.0
 10
-76.881366
 20
175.473414
 30
0.0
 10
-77.435766
 20
175.334814
 30
0.0
 10
-77.959366
 20
175.108013
 30
0.0
 10
-78.440966
 20
174.798614
 30
0.0
 10
-78.863766
 20
174.413610
 30
0.0
 10
-79.219366
 20
173.967009
 30
0.0
 10
-79.497966
 20
173.467210
 30
0.0
 10
-79.691166
 20
172.928208
 30
0.0
 10
-80.344266
 20
170.497799
 30
0.0
 10
-86.508016
 20
147.560142
 30
0.0
 10
-87.529786
 20
143.757733
 30
0.0
 10
-87.633386
 20
143.185131
 30
0.0
 10
-87.640386
 20
142.602728
 30
0.0
 10
-87.550786
 20
142.025928
 30
0.0
 10
-87.367386
 20
141.474326
 30
0.0
 10
-87.094386
 20
140.959124
 30
0.0
 10
-86.740186
 20
140.497126
 30
0.0
 10
-86.313186
 20
140.099525
 30
0.0
 10
-85.827386
 20
139.778924
 30
0.0
 10
-85.293986
 20
139.542319
 30
0.0
 10
-84.729786
 20
139.398124
 30
0.0
 10
-84.148776
 20
139.350524
 30
0.0
 10
-66.924536
 20
139.350524
 30
0.0
 10
-49.700296
 20
139.350524
 30
0.0
 10
-49.119286
 20
139.398124
 30
0.0
 10
-48.555086
 20
139.542319
 30
0.0
 10
-48.021686
 20
139.778924
 30
0.0
 10
-47.535886
 20
140.099525
 30
0.0
 10
-47.108886
 20
140.497126
 30
0.0
 10
-46.754686
 20
140.959124
 30
0.0
 10
-46.481686
 20
141.474326
 30
0.0
 10
-46.298286
 20
142.025928
 30
0.0
 10
-46.208686
 20
142.602728
 30
0.0
 10
-46.215686
 20
143.185131
 30
0.0
 10
-46.319286
 20
143.757733
 30
0.0
 10
-47.341056
 20
147.560142
 30
0.0
 10
-53.504806
 20
170.497799
 30
0.0
 10
-54.157906
 20
172.928208
 30
0.0
 10
-54.351106
 20
173.467210
 30
0.0
 10
-54.629706
 20
173.967009
 30
0.0
 10
-54.985306
 20
174.413610
 30
0.0
 10
-55.408106
 20
174.798614
 30
0.0
 10
-55.889706
 20
175.108013
 30
0.0
 10
-56.413306
 20
175.334814
 30
0.0
 10
-56.967706
 20
175.473414
 30
0.0
 10
-57.538916
 20
175.521014
 30
0.0
  0
LWPOLYLINE
  5
107
100
AcDbEntity
  8
0
 62
7
100
AcDbPolyline
 90
52
 70
1
 10
-57.480716
 20
104.315170
 30
0.0
 10
-57.376396
 20
104.287170
 30
0.0
 10
-56.891316
 20
104.156970
 30
0.0
 10
-56.338316
 20
103.899370
 30
0.0
 10
-55.838516
 20
103.549370
 30
0.0
 10
-55.407316
 20
103.118170
 30
0.0
 10
-55.057316
 20
102.618370
 30
0.0
 10
-54.799716
 20
102.065370
 30
0.0
 10
-54.669516
 20
101.580280
 30
0.0
 10
-54.641516
 20
101.475970
 30
0.0
 10
-54.588316
 20
100.868370
 30
0.0
 10
-54.588316
 20
92.818350
 30
0.0
 10
-54.588316
 20
84.768330
 30
0.0
 10
-54.641516
 20
84.160730
 30
0.0
 10
-54.669516
 20
84.056410
 30
0.0
 10
-54.799716
 20
83.571330
 30
0.0
 10
-55.057316
 20
83.018330
 30
0.0
 10
-55.407316
 20
82.518530
 30
0.0
 10
-55.838516
 20
82.087320
 30
0.0
 10
-56.338316
 20
81.737320
 30
0.0
 10
-56.891316
 20
81.479720
 30
0.0
 10
-57.376396
 20
81.349520
 30
0.0
 10
-57.480716
 20
81.321520
 30
0.0
 10
-58.088316
 20
81.268320
 30
0.0
 10
-66.138336
 20
81.268320
 30
0.0
 10
-74.188356
 20
81.268320
 30
0.0
 10
-74.795956
 20
81.321520
 30
0.0
 10
-74.900276
 20
81.349520
 30
0.0
 10
-75.385356
 20
81.479720
 30
0.0
 10
-75.938356
 20
81.737320
 30
0.0
 10
-76.438156
 20
82.087320
 30
0.0
 10
-76.869356
 20
82.518530
 30
0.0
 10
-77.219356
 20
83.018330
 30
0.0
 10
-77.476956
 20
83.571330
 30
0.0
 10
-77.607156
 20
84.056410
 30
0.0
 10
-77.635156
 20
84.160730
 30
0.0
 10
-77.688356
 20
84.768330
 30
0.0
 10
-77.688356
 20
92.818350
 30
0.0
 10
-77.688356
 20
100.868370
 30
0.0
 10
-77.635156
 20
101.475970
 30
0.0
 10
-77.607156
 20
101.580280
 30
0.0
 10
-77.476956
 20
102.065370
 30
0.0
 10
-77.219356
 20
102.618370
 30
0.0
 10
-76.869356
 20
103.118170
 30
0.0
 10
-76.438156
 20
103.549370
 30
0.0
 10
-75.938356
 20
103.899370
 30
0.0
 10
-75.385356
 20
104.156970
 30
0.0
 10
-74.900276
 20
104.287170
 30
0.0
 10
-74.795956
 20
104.315170
 30
0.0
 10
-74.188356
 20
104.368370
 30
0.0
 10
-66.138336
 20
104.368370
 30
0.0
 10
-58.088316
 20
104.368370
 30
0.0
  0
LWPOLYLINE
  5
108
100
AcDbEntity
  8
0
 62
7
100
AcDbPolyline
 90
146
 70
1
 10
-61.738126
 20
98.811760
 30
0.0
 10
-61.814326
 20
98.735560
 30
0.0
 10
-61.997116
 20
98.552770
 30
0.0
 10
-65.945126
 20
94.604760
 30
0.0
 10
-66.138326
 20
94.797960
 30
0.0
 10
-66.637326
 20
95.296960
 30
0.0
 10
-67.789276
 20
96.448910
 30
0.0
 10
-69.893136
 20
98.552770
 30
0.0
 10
-70.152136
 20
98.811770
 30
0.0
 10
-70.181536
 20
99.156170
 30
0.0
 10
-70.269736
 20
99.489370
 30
0.0
 10
-70.415336
 20
99.802970
 30
0.0
 10
-70.612736
 20
100.085770
 30
0.0
 10
-70.856336
 20
100.330770
 30
0.0
 10
-71.137746
 20
100.529570
 30
0.0
 10
-71.449936
 20
100.676570
 30
0.0
 10
-71.783146
 20
100.766170
 30
0.0
 10
-71.872746
 20
100.774170
 30
0.0
 10
-72.127546
 20
100.796970
 30
0.0
 10
-72.471946
 20
100.767570
 30
0.0
 10
-72.805146
 20
100.679370
 30
0.0
 10
-73.117346
 20
100.535170
 30
0.0
 10
-73.401546
 20
100.337770
 30
0.0
 10
-73.646546
 20
100.094160
 30
0.0
 10
-73.843946
 20
99.811360
 30
0.0
 10
-73.990946
 20
99.499160
 30
0.0
 10
-74.081946
 20
99.165960
 30
0.0
 10
-74.112746
 20
98.822960
 30
0.0
 10
-74.089646
 20
98.552760
 30
0.0
 10
-74.083646
 20
98.478560
 30
0.0
 10
-73.995446
 20
98.145360
 30
0.0
 10
-73.849846
 20
97.831760
 30
0.0
 10
-73.652446
 20
97.548960
 30
0.0
 10
-73.408846
 20
97.303960
 30
0.0
 10
-73.127446
 20
97.105160
 30
0.0
 10
-72.815246
 20
96.958160
 30
0.0
 10
-72.482046
 20
96.868560
 30
0.0
 10
-72.137646
 20
96.837760
 30
0.0
 10
-72.053046
 20
96.753160
 30
0.0
 10
-71.762176
 20
96.462290
 30
0.0
 10
-70.666326
 20
95.366440
 30
0.0
 10
-68.118176
 20
92.818290
 30
0.0
 10
-67.930576
 20
92.630690
 30
0.0
 10
-72.137596
 20
88.423680
 30
0.0
 10
-72.481996
 20
88.392880
 30
0.0
 10
-72.815196
 20
88.303280
 30
0.0
 10
-73.127396
 20
88.157680
 30
0.0
 10
-73.410196
 20
87.960280
 30
0.0
 10
-73.653796
 20
87.715280
 30
0.0
 10
-73.852596
 20
87.432480
 30
0.0
 10
-73.998196
 20
87.120280
 30
0.0
 10
-74.008196
 20
87.083880
 30
0.0
 10
-74.087996
 20
86.787080
 30
0.0
 10
-74.117396
 20
86.442680
 30
0.0
 10
-74.087996
 20
86.099680
 30
0.0
 10
-73.998396
 20
85.766480
 30
0.0
 10
-73.852796
 20
85.452880
 30
0.0
 10
-73.653996
 20
85.170080
 30
0.0
 10
-73.410396
 20
84.926470
 30
0.0
 10
-73.127596
 20
84.729070
 30
0.0
 10
-72.815396
 20
84.582070
 30
0.0
 10
-72.482196
 20
84.493870
 30
0.0
 10
-72.137796
 20
84.463070
 30
0.0
 10
-71.873196
 20
84.486870
 30
0.0
 10
-71.794796
 20
84.493870
 30
0.0
 10
-71.460196
 20
84.582070
 30
0.0
 10
-71.147996
 20
84.729070
 30
0.0
 10
-70.865186
 20
84.926470
 30
0.0
 10
-70.621586
 20
85.170080
 30
0.0
 10
-70.422786
 20
85.452880
 30
0.0
 10
-70.277186
 20
85.766480
 30
0.0
 10
-70.187586
 20
86.099680
 30
0.0
 10
-70.158186
 20
86.442680
 30
0.0
 10
-70.072286
 20
86.528580
 30
0.0
 10
-69.794326
 20
86.806540
 30
0.0
 10
-69.517036
 20
87.083830
 30
0.0
 10
-66.138826
 20
90.462040
 30
0.0
 10
-65.951226
 20
90.649640
 30
0.0
 10
-65.946226
 20
90.644640
 30
0.0
 10
-62.384126
 20
87.083730
 30
0.0
 10
-61.742716
 20
86.442530
 30
0.0
 10
-61.716116
 20
86.110730
 30
0.0
 10
-61.633516
 20
85.788730
 30
0.0
 10
-61.499116
 20
85.484930
 30
0.0
 10
-61.314316
 20
85.207730
 30
0.0
 10
-61.086116
 20
84.965530
 30
0.0
 10
-60.821506
 20
84.763930
 30
0.0
 10
-60.526116
 20
84.609930
 30
0.0
 10
-60.404306
 20
84.571130
 30
0.0
 10
-60.209706
 20
84.509130
 30
0.0
 10
-59.879306
 20
84.461530
 30
0.0
 10
-59.547506
 20
84.469530
 30
0.0
 10
-59.219906
 20
84.533930
 30
0.0
 10
-58.909106
 20
84.651530
 30
0.0
 10
-58.622106
 20
84.819530
 30
0.0
 10
-58.367306
 20
85.033730
 30
0.0
 10
-58.151706
 20
85.287130
 30
0.0
 10
-57.982306
 20
85.574130
 30
0.0
 10
-57.861906
 20
85.884930
 30
0.0
 10
-57.796106
 20
86.211130
 30
0.0
 10
-57.786106
 20
86.542930
 30
0.0
 10
-57.832306
 20
86.873340
 30
0.0
 10
-57.898006
 20
87.083330
 30
0.0
 10
-57.931706
 20
87.191130
 30
0.0
 10
-58.084306
 20
87.486540
 30
0.0
 10
-58.283106
 20
87.752540
 30
0.0
 10
-58.525306
 20
87.982140
 30
0.0
 10
-58.801106
 20
88.168340
 30
0.0
 10
-59.104906
 20
88.304140
 30
0.0
 10
-59.426906
 20
88.388140
 30
0.0
 10
-59.758706
 20
88.417540
 30
0.0
 10
-59.836006
 20
88.494840
 30
0.0
 10
-60.082106
 20
88.740930
 30
0.0
 10
-60.981626
 20
89.640460
 30
0.0
 10
-63.965686
 20
92.624520
 30
0.0
 10
-63.772486
 20
92.817720
 30
0.0
 10
-59.758676
 20
96.831530
 30
0.0
 10
-59.426876
 20
96.859530
 30
0.0
 10
-59.104876
 20
96.943530
 30
0.0
 10
-58.801076
 20
97.079330
 30
0.0
 10
-58.523876
 20
97.264130
 30
0.0
 10
-58.281676
 20
97.492330
 30
0.0
 10
-58.081476
 20
97.758330
 30
0.0
 10
-57.928876
 20
98.053730
 30
0.0
 10
-57.828076
 20
98.371530
 30
0.0
 10
-57.802676
 20
98.552140
 30
0.0
 10
-57.781876
 20
98.700540
 30
0.0
 10
-57.789876
 20
99.033740
 30
0.0
 10
-57.855676
 20
99.359940
 30
0.0
 10
-57.973276
 20
99.670740
 30
0.0
 10
-58.142676
 20
99.957740
 30
0.0
 10
-58.358276
 20
100.212540
 30
0.0
 10
-58.611676
 20
100.426740
 30
0.0
 10
-58.898676
 20
100.596140
 30
0.0
 10
-59.209476
 20
100.713740
 30
0.0
 10
-59.535676
 20
100.779540
 30
0.0
 10
-59.868876
 20
100.787540
 30
0.0
 10
-60.197876
 20
100.741340
 30
0.0
 10
-60.403676
 20
100.676040
 30
0.0
 10
-60.515676
 20
100.640540
 30
0.0
 10
-60.811076
 20
100.487940
 30
0.0
 10
-61.077076
 20
100.287740
 30
0.0
 10
-61.305286
 20
100.045540
 30
0.0
 10
-61.490086
 20
99.769740
 30
0.0
 10
-61.627286
 20
99.465940
 30
0.0
 10
-61.709886
 20
99.142540
 30
0.0
  0
LWPOLYLINE
  5
109
100
AcDbEntity
  8
0
 62
7
100
AcDbPolyline
 90
6
 70
1
 10
-39.312666
 20
306.030761
 30
0.0
 10
-38.612666
 20
305.330751
 30
0.0
 10
-38.612666
 20
264.730651
 30
0.0
 10
-41.412676
 20
264.730651
 30
0.0
 10
-41.412676
 20
305.330751
 30
0.0
 10
-40.712676
 20
306.030761
 30
0.0
  0
ENDSEC
  0
SECTION
  2
OBJECTS
  0
DICTIONARY
  5
C
330
0
100
AcDbDictionary
  3
ACAD_GROUP
350
D
  3
ACAD_MLINESTYLE
350
17
  0
DICTIONARY
  5
D
330
C
100
AcDbDictionary
  0
DICTIONARY
  5
1A
330
C
100
AcDbDictionary
  0
DICTIONARY
  5
17
330
C
100
AcDbDictionary
  3
STANDARD
350
18
  0
DICTIONARY
  5
19
330
C
100
AcDbDictionary
  0
ENDSEC
  0
EOF
